Çabuk Olalım Aşkım akor, Yıldız Tilbe Çabuk Olalım Aşkım gitar akoru; Gitar akorları için, akornet
A B C Ç D E F G H I İ J K L M N O Ö P Q R S Ş T U Ü V W X Y Z 0-9
 


 
E----0--3-1-0--1-0-----0--3-1-0--1-0----------------
B--3-----------------3-------------------------
G---------------------------------------------------
D---------------------------------------------------
A---------------------------------------------------
E---------------------- 

E----0-1-0------------------0-1-0-------------------
B--3-------3--1--0---0----3-------3-1--0---0--------
G------------------2---------------------2----------
D---------------------------------------------------
A---------------------------------------------------
E-------------------------- 

E------0---------------------------------------
B--0-1---3-1-0-------------0--3--1-0--------
G---------------2--0-0---2-----------2-0----
D----------------------------------------3-3-------
A---------------------------------------------------
E------------------------- 

E----------------------------------------------------
B------1-0--------------------------1-0--------------
G----0-----2-0---0-----------0--0-2-----2-0---0------
D--3-----------3----2--0-2-3----------------3---2----
A---------------------------------------------------
E-----------------------------------------------------------
-----------------
                    *****nakarat********
E----------------------------------------------------
B-------1-0--------------1-0------------------------
G-----------2-0---0----------2-0---0-------------
D--2-3----------3----2-3---------3---3--------------
A---------------------------------------------------
E-----------------------------------------------------------
-----------------

E----------------------------------------------------
B------1-0-------------------------1-0---------------
G----0-----2-0---0----------0--0-2------2-0---0------
D--3-----------3----2-0-2-3-----------------3---2----
A---------------------------------------------------
E-----------------------------------------------------------

Çabuk Olalım Aşkım gitar akoru, akornet'te.