Platonik akor, Yakup Platonik gitar akoru; Gitar akorları için, akornet
A B C Ç D E F G H I İ J K L M N O Ö P Q R S Ş T U Ü V W X Y Z 0-9
Yakup - Platonik Gitar Akoru
 


 
A                E
Senin Adını bir bilsem
D              A
Sarılıp   Öpebilsem
A                  E
Çaresizlik benim neşem
D              A     
Platonik aşığınım ben 


A           E 
Çaldın bütün tellerimi akorsuz keyfimi
A          E  
Sardın   Denizlerle sahillerimi
A          E
Açtım    kuralsızca seven gözlerimi
           E
Hayallerle geçen Günleri



E------------------------------------------|
B------------------------------------------|
G------------------------------------------|
D------------------------------------------|
A---2/7---5--4-5-4-5-4-5-4-----------------|
E----------------------------5-3-----------|


A                E
Senin Adını bir bilsem
D              A
Sarılıp   Öpebilsem
A                  E
Çaresizlik benim neşem
D              A     
Platonik aşığınım ben 


A        E
Verdim filmlerimde başrollerimi
A        E
Sildim defterimden bütün dertlerimi
A        E
Gördüm habersizce zehirlendiğimi
E
Sensizken seni sevdiğimi


E------------------------------------------|
B------------------------------------------|
G------------------------------------------|
D------------------------------------------|
A---2/7---5--4-5-4-5-4-5-4-----------------|
E----------------------------5-3-----------|


A                E
Senin Adını bir bilsem
D              A
Sarılıp   Öpebilsem
A                  E
Çaresizlik benim neşem
D              A     
Platonik aşığınım ben 

G        E
Belkide kırmam gerek
G        A
Bu çemberi bilmek gerek
G         A
Değermisin bu sevgime

E---------------------|
B---------------------|
G---------------------| (x3)
D---------5-----------|
A---4--5--------------|
E---------------------|


 G5 G5 G5

A                E
Senin Adını bir bilsem
D              A
Sarılıp   Öpebilsem
A                  E
Çaresizlik benim neşem
D              A     
Platonik aşığınım ben

Platonik gitar akoru, akornet'te.