Firuze akor, Sezen Aksu Firuze gitar akoru; Gitar akorları için, akornet

Gitar akorları, şarkı sözleri ve müzik sektörü haberleri

A B C Ç D E F G H I İ J K L M N O Ö P Q R S Ş T U Ü V W X Y Z 0-9
Sezen Aksu - Firuze Gitar Akoru
 
 
E:2-0-----2-2-0-------2---2-2-3-5-3-2-0---------
B:----3-1-------3-1-0-------------------3-3-2-0-
G:----------------------------------------------
D:----------------------------------------------
A:----------------------------------------------
E:----------------------------------------------

E:0-------0-0----------0-----0-3-2-0-3-0-----------
B:3-1-0-------3-1-0--------3--------------1-1-3-1-0
C:------2------------2-----------------------------
D:-------------------------------------------------
A:-------------------------------------------------
E:-------------------------------------------------

Firuze gitar akoru, akornet'te.