Haram Geceler akor, Pilli Bebek Haram Geceler gitar akoru; Gitar akorları için, akornet

Gitar akorları, şarkı sözleri ve müzik sektörü haberleri

A B C Ç D E F G H I İ J K L M N O Ö P Q R S Ş T U Ü V W X Y Z 0-9
 
İntro solo:
       
G|-7-7-7--6-6-6--4-4-4--2-2-2---------|       
D|------------------------------------|   x2   
A|------------------------------------|       
E|------------------------------------|
      

G|-4--4-4-6-2--2-2--7-7-6-4-2h4s6--6-6-6-2--0h2-0--4-4-2-0-----|        
D|---------------------------------------------------------4---|   x2      
A|-------------------------------------------------------------|       
E|-------------------------------------------------------------|


G|-6h7-4----4h6-2-0---2h4-0----------2h4----|        
D|-------7------------------4-4--4h5--------|       
A|------------------------------------------|       
E|------------------------------------------|


G|-6h7-4----4h6-2-0---2h4-0---------0-2~~---|        
D|-------7------------------4-4---4---------|       
A|------------------------------------------|       
E|------------------------------------------|


G|-9--7--6--4--2--0-------------------------|        
D|------------------4~~---------------------|       
A|------------------------------------------|       
E|------------------------------------------|

Akorlar:

F#m        Bm
Aklım başımda değil ki 
         G    F#m
Sebebini bilmiyorum
F#m        Bm 
Bize nazar değdi inan 
          G   F#m
Adım gibi biliyorum

Bm        G      F#m 
Yine bana haram geceler
F#m7       G    F#m
Senin için ağlıyorum
Bm            G      F#m 
Yar yine bana haram geceler
F#m7       G    F#m 
Senin için ağlıyorum 

Bm        G   F#m
Yanıyorum yanıyorum
Bm           G   F#m
Ah yanıyorum yanıyorum 

Bm            G      F#m 
Yar yine bana haram geceler
F#m7       G    F#m            x2 
Senin için ağlıyorum

Haram Geceler gitar akoru, akornet'te.
 Paylaşan Üye: Mert İlyas (Antalya)