Diskotek akor, Panik Diskotek gitar akoru; Gitar akorları için, akornet
A B C Ç D E F G H I İ J K L M N O Ö P Q R S Ş T U Ü V W X Y Z 0-9
Panik - Diskotek Gitar Akoru
 


 
intro:
---------------------------------------------------------------------------
---------------------------------------------------------------------------
---------------------------------------------------------------------------
--------0--------0--------0--------0-------0-0-2-0-------------------------
-----3----2---3----2---3----2---3----2---3---------------------------------
---------------------------------------------------------------------------


1. gitar:
---------------------------------------------------------------------------
---------------------------------------------------------------------------
---5-7--5-7--10-7-7--7-7---10h7--10s12-------5-7--5-7--10-7-7--7-7----10---
---------------------------------------------------------------------------
---------------------------------------------------------------------------
---------------------------------------------------------------------------
2. gitar:

---------------------------------------------------------------------------
---------------------------------------------------------------------------
---------------------------------------------------------------------------
----5s7---5s7---x-7---7-7-7-x-x-7---------5s7---5s7---x-7---7-7-7-x-10-----
----5s7---5s7---x-7---7-7-7-x-x-7---------5s7---5s7---x-7---7-7-7-x-10-----
----3s5---3s5---x-5---5-5-5-x-x-5---------3s5---3s5---x-5---5-5-5-x-8------

sözlerde introdaki gibi çalıyosunuz...

C5              A5  
Bu son şarkıdır bu albümde

G5              F5
Bu son şarkıdır bu albümde

C5
i know i can find a way to tell my feelings
C5
let me know would it be like this
C5
you always have reasons
C5
don't talk look into my eyes
C5
you can hear my heart beatings
C5
you say "just stop and wait"
C5
i'm waiting for the good times yeah


C5
i'm a girl like a pearl 
A5
and i want expensive cars and furs
G5
love all the men in the world

A5
şartel attı kız barmene bakınca
A5
nevri döndü buldu bir tabanca
A5
o güne kadar incitmedi karınca
A5
hayatı kaydı kurşun yanlış hedefe varınca

A5
cenaze çıktı kanlı diskotekten
A5
oysa hoş bir geceydi çaldığın felekten
A5
geldi barın sahibi "lütfen içki parası"
A5
demek ki neymiş alkol her fenalığın anası


e------17s7--------------------------
b------------------------------------
g------------------------------------


C5
i know you need to be in the motion
A5
come on and stand up i'll take your attention
G5
girls and the boys of the new generation
F5
lan oğlum get lan bu nasıl imagination

C5
look at my window see the poison ivy
A5
bu system her zaman garibana kaydi
G5
sapı da gitti de kari bana kaldi
F5
i've got a big job gidiyorum haydi

C5
bugünlerde kötüyüm morelman
C5
derdime derman süperman
C5
gelin lan, gidin lan oğlum düttürü dünya küheylan, yaylan
C5
aç mısın açıkta mısın yolda mısın
C5
yol değil otoban banadana takmış geliyor züppe
C5
üf be arabaya bak dörtlüyü yak

C5
yola bak, mala bakmadan gel
A5
boşa al, gaza basmadan gel
G5
in yürü, surat asmadan gel
F5
sola bak, sağa bakmadan gel
F5
gel, gel, gel, gel

Diskotek gitar akoru, akornet'te.