Buzdan Şato akor, Model Buzdan Şato gitar akoru; Gitar akorları için, akornet
A B C Ç D E F G H I İ J K L M N O Ö P Q R S Ş T U Ü V W X Y Z 0-9
Model - Buzdan Şato Gitar Akoru
 


 
İntro:

  Gm                Gm                 Gm
E-------------------------------------------------
B-------------------------------------------------
G--3-2----3-2---------3-2-----3-2----------------- (A)
D-----5-4-----5-4-5-------5-4-----5-4-5--o--------
A----------------------------------------o--------
E----------------------------------------o--------

 Gm              Bb                              
E-10-9-10-9-10-9----------------------------------
B----------------11-10-11-10-11-10-11-10----------
G----------------------------------------12-11-12- ->
D------------------------------------------------- ->
A-------------------------------------------------
E-------------------------------------------------

 Gm                           Gm                          Gm 
E-------------------------------------------------------------
B-11-10-------11-10-------------11-10-------11-10-------------
G-------12-11-------12-11-12-12-------12-11-------12-11-12-12- (B) x2
D-------------------------------------------------------------
A-------------------------------------------------------------
E-------------------------------------------------------------


Gm                                 
 Herkes yalnızdır kendi buzdan şatosunda
Cm                  Bb       D  
 Biri gelip duvarları eritsin ister
Gm                               
 Herkes denizci fırtınalı okyanusta 
Cm                    Bb        D   
 Bir limana  yelkenleri indirmek ister
Gm                                
 Herkes bir savaşçıdır kendi savaşında
Cm                 Bb        D   
 Birisi için gardını indirmek ister
Gm                                
 Herkes yorgundur yaşamaktan bu hayatta 
Cm                Bb        D  
 Dizine yatıp birinin uyumak ister

Gm     Cm             Gm        D           }
Ben çırılçıplak bir kadın karşında          }
                                            }
                                            }
Gm             Cm              Bb           }                  
 Attım dertleri hep içime içime             } (C)
            D               Gm              }
 En sonunda kaldım tek başıma               }
                Cm                Bb        }
 Koy gidelim saki koy kadehin içine         }
               D                Gm          }       
 Vuralım bu gece bu şişenin dibine          }

(B) x2

Gm
 Yastığımda hala ılık nefesin var
Cm                   Bb          D    
 Yanımda olsan şimdi nasıl sevesim var
Gm 
 Herşeyi darmadağın edip gidesim var
Cm                 Bb        D
 Durmadan içiyosam bir sebebim var

(C) 

Ara Solo

(C)

Buzdan Şato gitar akoru, akornet'te.