Aman Aman akor, Duman Aman Aman gitar akoru; Gitar akorları için, akornet
A B C Ç D E F G H I İ J K L M N O Ö P Q R S Ş T U Ü V W X Y Z 0-9
Duman - Aman Aman Gitar Akoru
 


 
Solo

E)------------------------------------------------------
B)-2-2-2-3-2-0---0-0-0-2-0------2-2-2-3-2-0-------------
G)-------------------------2----------------1-1-1-2-1---
D)----------------------------------------------------4-
A)------------------------------------------------------
E)------------------------------------------------------

E)---------------0-0-0-2-0------------------------------
B)-2-2-2-3-2-0-------------2---2-2-2-3-2-0--------------
G)-----------------------------------------1-1-1-2-1----
D)---------------------------------------------------4--
A)------------------------------------------------------
E)------------------------------------------------------

                    E)-------------
                    B)-------------
8 Kere F#m 1 kere E G)---------1-2-  Sonra 2 kere F#m
                    D)-2-2-2-4-----
                    A)-------------
                    E)-------------

F#m                  E
Nereye gider başını alıp sorarsın
F#m                 E
Kimbilir durmadan nasıl susarsın
F#m              E
Bilmeden boşuna atıp tutarsın
F#m      E           F#m
Su gibi akıp geçer zaman
E)-------------                       E)-------------
B)-------------                       B)-------------
G)-1-1-1-2-1---   8 Kere F#m 1 kere E G)---------1-2-  
D)-----------4-                       D)-2-2-2-4-----
A)-------------                       A)-------------
E)-------------                       E)-------------

F#m       E
Gezdin tozdun aman aman aman
F#m       E
Sazdın sözdün aman aman aman
F#m       E          F#m
Giderek üzdün bizi zaman
F#m       E          F#m
Giderek üzdün bizi zaman              NAKARAT 2 kere 
F#m       E
Yazdın çizdin aman aman aman
F#m       E
İncecik izdin aman aman aman
F#m       E          F#m
Sıraya dizdin bizi zaman
F#m       E          F#m
Sıraya dizdin bizi zaman

Tekrar Solo  ( Canınız İstiyorsa )

F#m                 E
Hep kaçıp yeni bir adım atarken
F#m                   E
Dibine kadar çileye batıp çıkarken
F#m                      E
İçine atıp atıp yoluna basıp giderken
F#m       E          F#m
Su gibi akıp geçer zaman
E)-------------                       E)-------------
B)-------------                       B)-------------
G)-1-1-1-2-1---   8 Kere F#m 1 kere E G)---------1-2-  
D)-----------4-                       D)-2-2-2-4-----
A)-------------                       A)-------------
E)-------------                       E)-------------

--------TEKRAR NAKARAT 2 kere Am ile bitiş yapabilirsiniz...--------

Normal Ritim ile çalınıyor. ( aşağı-aşağı-yukarı-yukarı-aşağı-yukarı )

Aman Aman gitar akoru, akornet'te.
free twitter followers