Bir An İçin akor, Badem Bir An İçin gitar akoru; Gitar akorları için, akornet
A B C Ç D E F G H I İ J K L M N O Ö P Q R S Ş T U Ü V W X Y Z 0-9
Badem - Bir An İçin Gitar Akoru
 


 
e|----------------|-------------|-------------|----------------
b|----------------|-------------|-------------|----------------
g|----------------|-------------|-------------|----------------
d|-2--2\4-4\2-0---|-2-0---------|-2\4-4\2-0-2-|-2\4-4\2-0-2-5-2
a|--------------3-|-----3-2-0-2-|-------------|----------------
e|----------------|-------------|-------------|----------------

e|-------------|-------------|-------------|------------
b|-------------|-------------|-------------|------------
g|-------------|-------------|-------------|------------
d|-2\4-4\2-0---|-2-0---------|-------------|------------
a|-----------3-|-----3-2-0---|---------2-0-|------------
e|-------------|-----------3-|-3\5-5\3-----|-2\3-2-0-2-3-0         (sanırım böyl
e)

Em                (G)          D            
Yüregim buz kitasi ellerim dal parcasi
           C            D           Em
Hangisi önce kirildi hangisi saglam kaldi
Em                  (G)           D
Cek kopar icimi saran Kabuk kabuk yaralari
              C            D            Em
Hadi al götür icimde kalan o zehirli anilari

Em          (Am)           D
Yagmurum ol sulansin gözlerim
                   G
Her damlada tassin nehirlerim
Em                D
Hic gitme hep kal isterim
Bm7           C
Okyanus olsun yüregim yüregim

Em          C 
Bir an icin ümitlendim
Em             D        
Belki benim olursun diye
Em         C
Yalan aski kabullendim
G          D             
Yalan olsanda gel yine

Em          C
Bir an icin ümitlendim
Em           D         
Belki beni seversin diye
Em         C
Yalan aska gögüs gerdim
G           D       Em
Rüzgarim ol es yine

Em                   (G)          D
Gözlerin kalp agrisi Sözlerin ask sancisi
             C          D        Em
Hangisi önce acidi hangisi kirik kaldi

Bir An İçin gitar akoru, akornet'te.