Holigan akor, Athena Holigan gitar akoru; Gitar akorları için, akornet
A B C Ç D E F G H I İ J K L M N O Ö P Q R S Ş T U Ü V W X Y Z 0-9
Athena - Holigan Gitar Akoru
 


 
İntro:G# - Em 
  
   
 e ----------------------------------------------- 
 B ----------------------------------------------- 
 G 7-5-4-5-4-5-7-5-4-----4-5-7-5-4-5-4-5-7-5-4---- 
 D -------------------7------------------------7-- 
 A ----------------------------------------------- 
 E ----------------------------------------------- 
    
 E ----------------------------------------------- 
 B ----------------5------------------------------ 
 G 4-5-7-5-7-7-7-5---5-5-4-5-5-4-7-5t4------------ 
 D ------------------------------------7---------- 
 A ----------------------------------------------- 
 E ----------------------------------------------- 
  
  G# Em 
 Em 
 Kalbimizden kopuyor bu şarkı sana 
  
 Sanmasınlar ikimiz ayrı yollarda 
 Dm 
 Para pulla ölçülmez aşkımız sana 
 C                       Dm   C     Am 
 Hiçbir zaman bırakmayız seni yollarda 
  
 G# - Em 
  
 Em           C F            Dm 
 Marş söylerken yumruk göklerde 
           C     E             Am 
 Yensen yenilsen kalbim hep senle 
  
 Em           C F            Dm 
 Marş söylerken yumruk göklerde 
                 E 
 Yensen yenilsen kalbim hep senle 
  
  intro tekrar 
  
 Em 
 Ne derlerse desinler hepimiz için 
  
 Hiç takmadık takmayız taraftarız biz 
 Dm 
 Gururumuzsun sen yeşil sahada 
 C                   Dm  C     Am 
 Koca dünya bir yana sen bir yana 
  
 G# - Em 
 Em           C F            Dm 
 Marş söylerken yumruk göklerde 
           C     E             Am 
 Yensen yenilsen kalbim hep senle 
  
 Em           C F            Dm 
 Marş söylerken yumruk göklerde 
                 E 
 Yensen yenilsen kalbim hep senle 
  
  
 e ----------------------------------------------- 
 B ------------------------------------5---------- 
 G ----------------4-5-7-7-7-7-7-7-7-7---7-5------ 
 D 7-7-7-7-7-7-7-7-------------------------------- 
 A ----------------------------------------------- 
 E ----------------------------------------------- 
    
 e ----------------------------------------------- 
 B ----------------5------------------------------ 
 G 7-7-7-7-7-7-7-7---7-5-------------------------- 
 D ----------------------7-7-7-7-5-7-5---0-------- 
 A ------------------------------------7---------- 
 E ----------------------------------------------- 
  
  
 e ----------------------------------------------- 
 B ------------------------------------5---------- 
 G ----------------4-5-7-7-7-7-7-7-7-7---7-5------ 
 D 7-7-7-7-7-7-7-7-------------------------------- 
 A ----------------------------------------------- 
 E ----------------------------------------------- 
    
 e ----------------------------------------------- 
 B ----------5h6---------------------------------- 
 G 7-7-7-7-7-----7-5-7-4-------------------------- 
 D ----------------------7-7-7-7-5-7-5---0-------- 
 A ------------------------------------7---------- 
 E ----------------------------------------------- 
  
 G# -Em 
  
 Em 
 Aaaaaaaaaa 
  
 Em 
 Kalbimizden kopuyor bu şarkı sana 
  
 Sanmasınlar ikimiz ayrı yollarda 
 Dm 
 Para pulla ölçülmez aşkımız sana 
 C                       Dm   C     Am 
 Hiçbir zaman bırakmayız seni yollarda 
  
 Em                     Em     Em     Em 
 Bizim için haydi şimdi bastır bastır bastır 
  
  
  
  
 Em           C F            Dm 
 Marş söylerken yumruk göklerde 
           C     E             Am 
 Yensen yenilsen kalbim hep senle 
  
 Em           C F            Dm 
 Marş söylerken yumruk göklerde 
           C     E             Am 
 Yensen yenilsen kalbim hep senle 
  
 Em           C F            Dm 
 Marş söylerken yumruk göklerde 
           C     E             Am 
 Yensen yenilsen kalbim hep senle 
  
 Em           C F            Dm 
 Marş söylerken yumruk göklerde 
                 E 
 Yensen yenilsen kalbim hep senle

Holigan gitar akoru, akornet'te.