Arsız Gönül akor, Athena Arsız Gönül gitar akoru; Gitar akorları için, akornet
A B C Ç D E F G H I İ J K L M N O Ö P Q R S Ş T U Ü V W X Y Z 0-9
Athena - Arsız Gönül Gitar Akoru
 


 
c                                Am
G------------------------------------------------4s------------------
D------------------------------2-5-7-7-7-5-7-7-7----7-7-5-7-5--------
A-3-3-3-5-3-3-3-0-3-3-3-0--3-5--------------------------------7-5----
E--------------------------------------------------------------------


C                          Am
Ben mesela, uçarım mesela, yerlere göklere sığamıyorum
C                              Am
Ben ben mesela, uçarım mesela, yine de senden kaçamıyorum

C
Sen beni bilmezsin o kadar
C
Darılma bana, günahlarıma
Am                       C
Bir yalan koydum ben aklıma

C
Vurdular zincirlere beni
C
Daldım kurtlar sofrasına
Am                       C
Bir yalan koydum ben aklıma aklıma

C                   Am
Oooooooo fırtınalar esiyor
C                     Am
Arsız gönül iflah olmuyor


SOLO:


  C                     Am                            C                  Am
E--------------------88-777---------------------------------------------8-7-8---
-12---
B-888-------------88---------101010-------------------888-------------8-------10
------
G------999999999--------------------999-777----------------999999999------------
------
D-------------------------------------------1010-99-----------------------------
------



C
Ayıp oldum yine sana
Am
Bu kader yolu üstünde
C
Yalnızlık içiyorum
Am
Sabahsız gecelerde

C
Senden vazgeçeli sevgilim
Am
Sevdasız karakollarında
C                        Am
Bir yalan koydum ben aklıma aklıma

C                   Am
Oooooooo fırtınalar esiyor
C                      Am
Arsız gönül iflah olmuyor

  c                                Am
  
E-8-------8-------8-------10-------8---------8---------8---------8-7--
B---8---8---8---8---8---8----8---8---10---10---10---10---10---10------  X 4
G-----9-------9-------9--------9--------9---------9---------9---------
Biliyor musun hala aklımda o sözler
Yalanım da benimle bu şarkıları söyler


Ben mesela, uçarım mesela, yerlere göklere sığamıyorum
C                              Am
Ben ben mesela, uçarım mesela, yine de senden kaçamıyorum

Arsız Gönül gitar akoru, akornet'te.